  0
SECTION
  2
HEADER
  9
$ACADVER
  1
AC1015
  9
$ACADMAINTVER
 70
     6
  9
$DWGCODEPAGE
  3
ANSI_1254
  9
$INSBASE
 10
0.0
 20
0.0
 30
0.0
  9
$EXTMIN
 10
0.0
 20
0.0
 30
0.0
  9
$EXTMAX
 10
279.4
 20
215.9
 30
0.0
  9
$LIMMIN
 10
0.0
 20
0.0
  9
$LIMMAX
 10
279.4
 20
215.9
  9
$ORTHOMODE
 70
     0
  9
$REGENMODE
 70
     1
  9
$FILLMODE
 70
     1
  9
$QTEXTMODE
 70
     0
  9
$MIRRTEXT
 70
     1
  9
$LTSCALE
 40
1.0
  9
$ATTMODE
 70
     1
  9
$TEXTSIZE
 40
3.5
  9
$TRACEWID
 40
1.0
  9
$TEXTSTYLE
  7
Standard
  9
$CLAYER
  8
0
  9
$CELTYPE
  6
ByLayer
  9
$CECOLOR
 62
   256
  9
$CELTSCALE
 40
1.0
  9
$DISPSILH
 70
     0
  9
$DIMSCALE
 40
1.0
  9
$DIMASZ
 40
3.5
  9
$DIMEXO
 40
1.0
  9
$DIMDLI
 40
3.75
  9
$DIMRND
 40
0.0
  9
$DIMDLE
 40
0.0
  9
$DIMEXE
 40
1.0
  9
$DIMTP
 40
0.0
  9
$DIMTM
 40
0.0
  9
$DIMTXT
 40
3.5
  9
$DIMCEN
 40
2.5
  9
$DIMTSZ
 40
0.0
  9
$DIMTOL
 70
     0
  9
$DIMLIM
 70
     0
  9
$DIMTIH
 70
     1
  9
$DIMTOH
 70
     1
  9
$DIMSE1
 70
     0
  9
$DIMSE2
 70
     0
  9
$DIMTAD
 70
     1
  9
$DIMZIN
 70
     0
  9
$DIMBLK
  1

  9
$DIMASO
 70
     1
  9
$DIMSHO
 70
     1
  9
$DIMPOST
  1

  9
$DIMAPOST
  1

  9
$DIMALT
 70
     0
  9
$DIMALTD
 70
     3
  9
$DIMALTF
 40
0.0393700787
  9
$DIMLFAC
 40
1.0
  9
$DIMTOFL
 70
     1
  9
$DIMTVP
 40
0.0
  9
$DIMTIX
 70
     0
  9
$DIMSOXD
 70
     0
  9
$DIMSAH
 70
     0
  9
$DIMBLK1
  1

  9
$DIMBLK2
  1

  9
$DIMSTYLE
  2
ISO-25
  9
$DIMCLRD
 70
     0
  9
$DIMCLRE
 70
     0
  9
$DIMCLRT
 70
     0
  9
$DIMTFAC
 40
1.0
  9
$DIMGAP
 40
1.524
  9
$DIMJUST
 70
     0
  9
$DIMSD1
 70
     0
  9
$DIMSD2
 70
     0
  9
$DIMTOLJ
 70
     0
  9
$DIMTZIN
 70
     0
  9
$DIMALTZ
 70
     0
  9
$DIMALTTZ
 70
     0
  9
$DIMUPT
 70
     0
  9
$DIMDEC
 70
     2
  9
$DIMTDEC
 70
     2
  9
$DIMALTU
 70
     2
  9
$DIMALTTD
 70
     3
  9
$DIMTXSTY
  7
Standard
  9
$DIMAUNIT
 70
     0
  9
$DIMADEC
 70
     2
  9
$DIMALTRND
 40
0.0
  9
$DIMAZIN
 70
     0
  9
$DIMDSEP
 70
    44
  9
$DIMATFIT
 70
     3
  9
$DIMFRAC
 70
     0
  9
$DIMLDRBLK
  1

  9
$DIMLUNIT
 70
     2
  9
$DIMLWD
 70
    -2
  9
$DIMLWE
 70
    -2
  9
$DIMTMOVE
 70
     0
  9
$LUNITS
 70
     2
  9
$LUPREC
 70
     2
  9
$SKETCHINC
 40
1.0
  9
$FILLETRAD
 40
10.0
  9
$AUNITS
 70
     0
  9
$AUPREC
 70
     2
  9
$MENU
  1
.
  9
$ELEVATION
 40
0.0
  9
$PELEVATION
 40
0.0
  9
$THICKNESS
 40
0.0
  9
$LIMCHECK
 70
     0
  9
$CHAMFERA
 40
0.0
  9
$CHAMFERB
 40
0.0
  9
$CHAMFERC
 40
0.0
  9
$CHAMFERD
 40
0.0
  9
$SKPOLY
 70
     0
  9
$TDCREATE
 40
2458985.63619978
  9
$TDUCREATE
 40
2458985.51119978
  9
$TDUPDATE
 40
2458985.636200046
  9
$TDUUPDATE
 40
2458985.511200046
  9
$TDINDWG
 40
0.0000000116
  9
$TDUSRTIMER
 40
0.0000000116
  9
$USRTIMER
 70
     1
  9
$ANGBASE
 50
0.0
  9
$ANGDIR
 70
     0
  9
$PDMODE
 70
     0
  9
$PDSIZE
 40
-1.0
  9
$PLINEWID
 40
0.0
  9
$SPLFRAME
 70
     0
  9
$SPLINETYPE
 70
     6
  9
$SPLINESEGS
 70
     8
  9
$HANDSEED
  5
CC
  9
$SURFTAB1
 70
     6
  9
$SURFTAB2
 70
     6
  9
$SURFTYPE
 70
     6
  9
$SURFU
 70
     6
  9
$SURFV
 70
     6
  9
$UCSBASE
  2

  9
$UCSNAME
  2

  9
$UCSORG
 10
0.0
 20
0.0
 30
0.0
  9
$UCSXDIR
 10
1.0
 20
0.0
 30
0.0
  9
$UCSYDIR
 10
0.0
 20
1.0
 30
0.0
  9
$UCSORTHOREF
  2

  9
$UCSORTHOVIEW
 70
     0
  9
$UCSORGTOP
 10
0.0
 20
0.0
 30
0.0
  9
$UCSORGBOTTOM
 10
0.0
 20
0.0
 30
0.0
  9
$UCSORGLEFT
 10
0.0
 20
0.0
 30
0.0
  9
$UCSORGRIGHT
 10
0.0
 20
0.0
 30
0.0
  9
$UCSORGFRONT
 10
0.0
 20
0.0
 30
0.0
  9
$UCSORGBACK
 10
0.0
 20
0.0
 30
0.0
  9
$PUCSBASE
  2

  9
$PUCSNAME
  2

  9
$PUCSORG
 10
0.0
 20
0.0
 30
0.0
  9
$PUCSXDIR
 10
1.0
 20
0.0
 30
0.0
  9
$PUCSYDIR
 10
0.0
 20
1.0
 30
0.0
  9
$PUCSORTHOREF
  2

  9
$PUCSORTHOVIEW
 70
     0
  9
$PUCSORGTOP
 10
0.0
 20
0.0
 30
0.0
  9
$PUCSORGBOTTOM
 10
0.0
 20
0.0
 30
0.0
  9
$PUCSORGLEFT
 10
0.0
 20
0.0
 30
0.0
  9
$PUCSORGRIGHT
 10
0.0
 20
0.0
 30
0.0
  9
$PUCSORGFRONT
 10
0.0
 20
0.0
 30
0.0
  9
$PUCSORGBACK
 10
0.0
 20
0.0
 30
0.0
  9
$USERI1
 70
     0
  9
$USERI2
 70
     0
  9
$USERI3
 70
     0
  9
$USERI4
 70
     0
  9
$USERI5
 70
     0
  9
$USERR1
 40
0.0
  9
$USERR2
 40
0.0
  9
$USERR3
 40
0.0
  9
$USERR4
 40
0.0
  9
$USERR5
 40
0.0
  9
$WORLDVIEW
 70
     1
  9
$SHADEDGE
 70
     3
  9
$SHADEDIF
 70
    70
  9
$TILEMODE
 70
     1
  9
$MAXACTVP
 70
    64
  9
$PINSBASE
 10
0.0
 20
0.0
 30
0.0
  9
$PLIMCHECK
 70
     0
  9
$PEXTMIN
 10
1.0000000000E+20
 20
1.0000000000E+20
 30
1.0000000000E+20
  9
$PEXTMAX
 10
-1.0000000000E+20
 20
-1.0000000000E+20
 30
-1.0000000000E+20
  9
$PLIMMIN
 10
0.0
 20
0.0
  9
$PLIMMAX
 10
420.0
 20
297.0
  9
$UNITMODE
 70
     0
  9
$VISRETAIN
 70
     1
  9
$PLINEGEN
 70
     0
  9
$PSLTSCALE
 70
     1
  9
$TREEDEPTH
 70
  3020
  9
$CMLSTYLE
  2
Standard
  9
$CMLJUST
 70
     0
  9
$CMLSCALE
 40
20.0
  9
$PROXYGRAPHICS
 70
     1
  9
$MEASUREMENT
 70
     1
  9
$CELWEIGHT
370
    -1
  9
$ENDCAPS
280
     0
  9
$JOINSTYLE
280
     0
  9
$LWDISPLAY
290
     1
  9
$INSUNITS
 70
     4
  9
$HYPERLINKBASE
  1

  9
$STYLESHEET
  1

  9
$XEDIT
290
     1
  9
$CEPSNTYPE
380
     0
  9
$PSTYLEMODE
290
     1
  9
$FINGERPRINTGUID
  2
{aa6d1f3d-8db3-493e-963b-63ab0c3a97bd}
  9
$VERSIONGUID
  2
{FAEB1C32-E019-11D5-929B-00C0DF256EC4}
  9
$EXTNAMES
290
     1
  9
$PSVPSCALE
 40
0.0
  9
$OLESTARTUP
290
     0
  0
ENDSEC
  0
SECTION
  2
CLASSES
  0
CLASS
  1
ACDBDICTIONARYWDFLT
  2
AcDbDictionaryWithDefault
  3
ObjectDBX Classes
 90
        0
280
     0
281
     0
  0
CLASS
  1
VISUALSTYLE
  2
AcDbVisualStyle
  3
ObjectDBX Classes
 90
     4095
280
     0
281
     0
  0
CLASS
  1
MATERIAL
  2
AcDbMaterial
  3
ObjectDBX Classes
 90
     1153
280
     0
281
     0
  0
CLASS
  1
SCALE
  2
AcDbScale
  3
ObjectDBX Classes
 90
     1153
280
     0
281
     0
  0
CLASS
  1
TABLESTYLE
  2
AcDbTableStyle
  3
ObjectDBX Classes
 90
     4095
280
     0
281
     0
  0
CLASS
  1
MLEADERSTYLE
  2
AcDbMLeaderStyle
  3
ACDB_MLEADERSTYLE_CLASS
 90
     4095
280
     0
281
     0
  0
CLASS
  1
SUN
  2
AcDbSun
  3
SCENEOE
 90
     1153
280
     0
281
     0
  0
CLASS
  1
ACDBPLACEHOLDER
  2
AcDbPlaceHolder
  3
ObjectDBX Classes
 90
        0
280
     0
281
     0
  0
CLASS
  1
LAYOUT
  2
AcDbLayout
  3
ObjectDBX Classes
 90
        0
280
     0
281
     0
  0
ENDSEC
  0
SECTION
  2
TABLES
  0
TABLE
  2
VPORT
  5
8
330
0
100
AcDbSymbolTable
 70
     1
  0
VPORT
  5
29
330
8
100
AcDbSymbolTableRecord
100
AcDbViewportTableRecord
  2
*Active
 70
     0
 10
0.0
 20
0.0
 11
1.0
 21
1.0
 12
139.7
 22
107.95
 13
0.0
 23
0.0
 14
10.0
 24
10.0
 15
10.0
 25
10.0
 16
0.0
 26
0.0
 36
1.0
 17
0.0
 27
0.0
 37
0.0
 40
215.9
 41
1.2941176471
 42
50.0
 43
0.0
 44
0.0
 50
0.0
 51
0.0
 71
     0
 72
  2000
 73
     1
 74
     3
 75
     0
 76
     0
 77
     0
 78
     0
281
     0
 65
     1
110
0.0
120
0.0
130
0.0
111
1.0
121
0.0
131
0.0
112
0.0
122
1.0
132
0.0
 79
     0
146
0.0
  0
ENDTAB
  0
TABLE
  2
LTYPE
  5
5
330
0
100
AcDbSymbolTable
 70
     6
  0
LTYPE
  5
14
330
5
100
AcDbSymbolTableRecord
100
AcDbLinetypeTableRecord
  2
ByBlock
 70
     0
  3

 72
    65
 73
     0
 40
0.0
  0
LTYPE
  5
15
330
5
100
AcDbSymbolTableRecord
100
AcDbLinetypeTableRecord
  2
ByLayer
 70
     0
  3

 72
    65
 73
     0
 40
0.0
  0
LTYPE
  5
16
330
5
100
AcDbSymbolTableRecord
100
AcDbLinetypeTableRecord
  2
Continuous
 70
     0
  3
Solid line
 72
    65
 73
     0
 40
0.0
  0
LTYPE
  5
6E
330
5
100
AcDbSymbolTableRecord
100
AcDbLinetypeTableRecord
  2
HIDDEN
 70
     0
  3
Hidden __ __ __ __ __ __ __ __ __ __ __ __ __ __
 72
    65
 73
     2
 40
1.905
 49
1.27
 74
     0
 49
-0.635
 74
     0
  0
LTYPE
  5
6F
330
5
100
AcDbSymbolTableRecord
100
AcDbLinetypeTableRecord
  2
PHANTOM
 70
     0
  3
Phantom ______  __  __  ______  __  __  ______
 72
    65
 73
     6
 40
12.7
 49
6.35
 74
     0
 49
-1.27
 74
     0
 49
1.27
 74
     0
 49
-1.27
 74
     0
 49
1.27
 74
     0
 49
-1.27
 74
     0
  0
LTYPE
  5
70
330
5
100
AcDbSymbolTableRecord
100
AcDbLinetypeTableRecord
  2
CENTER
 70
     0
  3
Center ____ _ ____ _ ____ _ ____ _ ____ _ ____
 72
    65
 73
     4
 40
10.16
 49
6.35
 74
     0
 49
-1.27
 74
     0
 49
1.27
 74
     0
 49
-1.27
 74
     0
  0
LTYPE
  5
71
330
5
100
AcDbSymbolTableRecord
100
AcDbLinetypeTableRecord
  2
CENTERX2
 70
     0
  3
Center (2x) ________  __  ________  __  _____
 72
    65
 73
     4
 40
20.32
 49
12.7
 74
     0
 49
-2.54
 74
     0
 49
2.54
 74
     0
 49
-2.54
 74
     0
  0
LTYPE
  5
72
330
5
100
AcDbSymbolTableRecord
100
AcDbLinetypeTableRecord
  2
DOT2
 70
     0
  3
Dot (.5x) ........................................
 72
    65
 73
     2
 40
0.635
 49
0.0
 74
     0
 49
-0.635
 74
     0
  0
ENDTAB
  0
TABLE
  2
LAYER
  5
2
330
0
100
AcDbSymbolTable
 70
    17
  0
LAYER
  5
10
330
2
100
AcDbSymbolTableRecord
100
AcDbLayerTableRecord
  2
0
 70
     0
 62
     7
  6
Continuous
370
    -3
390
F
  0
LAYER
  5
73
330
2
100
AcDbSymbolTableRecord
100
AcDbLayerTableRecord
  2
FORMAT
 70
     0
 62
     7
  6
Continuous
370
    -3
390
F
  0
LAYER
  5
74
330
2
100
AcDbSymbolTableRecord
100
AcDbLayerTableRecord
  2
YARDIMCI_GEOMETRI
 70
     0
 62
    -6
  6
Continuous
290
     0
370
    -3
390
F
  0
LAYER
  5
75
330
2
100
AcDbSymbolTableRecord
100
AcDbLayerTableRecord
  2
SAYFA_CERCEVESI
 70
     0
 62
     7
  6
Continuous
370
    25
390
F
  0
LAYER
  5
76
330
2
100
AcDbSymbolTableRecord
100
AcDbLayerTableRecord
  2
ANTET
 70
     0
 62
     7
  6
Continuous
370
    -3
390
F
  0
LAYER
  5
77
330
2
100
AcDbSymbolTableRecord
100
AcDbLayerTableRecord
  2
OLCU
 70
     0
 62
   150
  6
Continuous
370
    -3
390
F
  0
LAYER
  5
78
330
2
100
AcDbSymbolTableRecord
100
AcDbLayerTableRecord
  2
METIN
 70
     0
 62
    96
  6
Continuous
370
    -3
390
F
  0
LAYER
  5
79
330
2
100
AcDbSymbolTableRecord
100
AcDbLayerTableRecord
  2
BALON
 70
     0
 62
     5
  6
Continuous
370
    -3
390
F
  0
LAYER
  5
7A
330
2
100
AcDbSymbolTableRecord
100
AcDbLayerTableRecord
  2
VURGU
 70
     0
 62
     7
  6
Continuous
370
    -3
390
F
  0
LAYER
  5
7B
330
2
100
AcDbSymbolTableRecord
100
AcDbLayerTableRecord
  2
SILIK
 70
     0
 62
     7
  6
Continuous
370
    -3
390
F
  0
LAYER
  5
7C
330
2
100
AcDbSymbolTableRecord
100
AcDbLayerTableRecord
  2
MODEL
 70
     0
 62
     7
  6
Continuous
370
    -3
390
F
  0
LAYER
  5
7D
330
2
100
AcDbSymbolTableRecord
100
AcDbLayerTableRecord
  2
DETAYLANDıRMA
 70
     0
 62
   190
  6
Continuous
370
    -3
390
F
  0
LAYER
  5
7E
330
2
100
AcDbSymbolTableRecord
100
AcDbLayerTableRecord
  2
TOLERANS
 70
     0
 62
   230
  6
Continuous
370
    -3
390
F
  0
LAYER
  5
7F
330
2
100
AcDbSymbolTableRecord
100
AcDbLayerTableRecord
  2
MERKEZ_CIZGILERI
 70
     0
 62
    30
  6
Continuous
370
    -3
390
F
  0
LAYER
  5
80
330
2
100
AcDbSymbolTableRecord
100
AcDbLayerTableRecord
  2
KESIT-DETAY_CIZGILERI
 70
     0
 62
     7
  6
Continuous
370
    -3
390
F
  0
LAYER
  5
81
330
2
100
AcDbSymbolTableRecord
100
AcDbLayerTableRecord
  2
\U+041E\U+0421\U+0415\U+0412\U+042B\U+0415
 70
     0
 62
     7
  6
Continuous
370
    -3
390
F
  0
LAYER
  5
82
330
2
100
AcDbSymbolTableRecord
100
AcDbLayerTableRecord
  2
\U+0412\U+041E\U+0414\U+042F\U+041D\U+042B\U+0415_\U+0417\U+041D\U+0410\U+041A\U+0418
 70
     0
 62
    11
  6
Continuous
370
    -3
390
F
  0
ENDTAB
  0
TABLE
  2
STYLE
  5
3
330
0
100
AcDbSymbolTable
 70
     1
  0
STYLE
  5
11
330
3
100
AcDbSymbolTableRecord
100
AcDbTextStyleTableRecord
  2
Standard
 70
     0
 40
0.0
 41
1.0
 50
0.0
 71
     0
 42
3.5
  3
txt
  4

  0
ENDTAB
  0
TABLE
  2
VIEW
  5
6
330
0
100
AcDbSymbolTable
 70
     0
  0
ENDTAB
  0
TABLE
  2
UCS
  5
7
330
0
100
AcDbSymbolTable
 70
     0
  0
ENDTAB
  0
TABLE
  2
APPID
  5
9
330
0
100
AcDbSymbolTable
 70
     1
  0
APPID
  5
12
330
9
100
AcDbSymbolTableRecord
100
AcDbRegAppTableRecord
  2
ACAD
 70
     0
  0
ENDTAB
  0
TABLE
  2
DIMSTYLE
  5
A
330
0
100
AcDbSymbolTable
 70
     1
100
AcDbDimStyleTable
  0
DIMSTYLE
105
27
330
A
100
AcDbSymbolTableRecord
100
AcDbDimStyleTableRecord
  2
ISO-25
 70
     0
 41
2.5
 42
0.625
 43
3.75
 44
1.25
 73
     0
 74
     0
 77
     1
 78
     8
140
2.5
141
2.5
143
0.0393700787
147
0.625
171
     3
172
     1
178
     0
271
     2
272
     2
274
     3
278
    44
283
     0
284
     8
340
11
  0
ENDTAB
  0
TABLE
  2
BLOCK_RECORD
  5
1
330
0
100
AcDbSymbolTable
 70
     2
  0
BLOCK_RECORD
  5
1F
330
1
100
AcDbSymbolTableRecord
100
AcDbBlockTableRecord
  2
*Model_Space
340
22
  0
BLOCK_RECORD
  5
1B
330
1
100
AcDbSymbolTableRecord
100
AcDbBlockTableRecord
  2
*Paper_Space
340
1E
  0
BLOCK_RECORD
  5
23
330
1
100
AcDbSymbolTableRecord
100
AcDbBlockTableRecord
  2
*Paper_Space0
340
26
  0
BLOCK_RECORD
  5
87
330
1
100
AcDbSymbolTableRecord
100
AcDbBlockTableRecord
  2
SW_CENTERMARKSYMBOL_0
340
0
102
{BLKREFS
331
92
102
}
  0
ENDTAB
  0
ENDSEC
  0
SECTION
  2
BLOCKS
  0
BLOCK
  5
20
330
1F
100
AcDbEntity
  8
0
100
AcDbBlockBegin
  2
*Model_Space
 70
     0
 10
0.0
 20
0.0
 30
0.0
  3
*Model_Space
  1

  0
ENDBLK
  5
21
330
1F
100
AcDbEntity
  8
0
100
AcDbBlockEnd
  0
BLOCK
  5
1C
330
1B
100
AcDbEntity
 67
     1
  8
0
100
AcDbBlockBegin
  2
*Paper_Space
 70
     0
 10
0.0
 20
0.0
 30
0.0
  3
*Paper_Space
  1

  0
ENDBLK
  5
1D
330
1B
100
AcDbEntity
 67
     1
  8
0
100
AcDbBlockEnd
  0
BLOCK
  5
24
330
23
100
AcDbEntity
  8
0
100
AcDbBlockBegin
  2
*Paper_Space0
 70
     0
 10
0.0
 20
0.0
 30
0.0
  3
*Paper_Space0
  1

  0
ENDBLK
  5
25
330
23
100
AcDbEntity
  8
0
100
AcDbBlockEnd
  0
BLOCK
  5
88
330
87
100
AcDbEntity
  8
0
100
AcDbBlockBegin
  2
SW_CENTERMARKSYMBOL_0
 70
     0
 10
0.0
 20
0.0
 30
0.0
  3
SW_CENTERMARKSYMBOL_0
  1

  0
LINE
  5
8A
330
87
100
AcDbEntity
  8
FORMAT
 62
     0
100
AcDbLine
 10
0.0
 20
0.0
 30
0.0
 11
0.0
 21
2.5
 31
0.0
  0
LINE
  5
8B
330
87
100
AcDbEntity
  8
FORMAT
 62
     0
100
AcDbLine
 10
0.0
 20
0.0
 30
0.0
 11
-2.5
 21
0.0
 31
0.0
  0
LINE
  5
8C
330
87
100
AcDbEntity
  8
FORMAT
 62
     0
100
AcDbLine
 10
0.0
 20
0.0
 30
0.0
 11
0.0
 21
-2.5
 31
0.0
  0
LINE
  5
8D
330
87
100
AcDbEntity
  8
FORMAT
 62
     0
100
AcDbLine
 10
0.0
 20
0.0
 30
0.0
 11
2.5
 21
0.0
 31
0.0
  0
LINE
  5
8E
330
87
100
AcDbEntity
  8
FORMAT
 62
     0
100
AcDbLine
 10
0.0
 20
5.0
 30
0.0
 11
0.0
 21
34.5
 31
0.0
  0
LINE
  5
8F
330
87
100
AcDbEntity
  8
FORMAT
 62
     0
100
AcDbLine
 10
-5.0
 20
0.0
 30
0.0
 11
-34.5
 21
0.0
 31
0.0
  0
LINE
  5
90
330
87
100
AcDbEntity
  8
FORMAT
 62
     0
100
AcDbLine
 10
0.0
 20
-5.0
 30
0.0
 11
0.0
 21
-34.5
 31
0.0
  0
LINE
  5
91
330
87
100
AcDbEntity
  8
FORMAT
 62
     0
100
AcDbLine
 10
5.0
 20
0.0
 30
0.0
 11
34.5
 21
0.0
 31
0.0
  0
ENDBLK
  5
89
330
87
100
AcDbEntity
  8
0
100
AcDbBlockEnd
  0
ENDSEC
  0
SECTION
  2
ENTITIES
  0
CIRCLE
  5
83
330
1F
100
AcDbEntity
  8
0
  6
Continuous
 62
     7
370
    25
100
AcDbCircle
 10
142.9934680851
 20
119.1714893617
 30
0.0
 40
15.99999999999999
  0
CIRCLE
  5
84
330
1F
100
AcDbEntity
  8
0
  6
Continuous
 62
     7
370
    25
100
AcDbCircle
 10
142.9934680851
 20
119.1714893617
 30
0.0
 40
12.99999999999997
  0
CIRCLE
  5
85
330
1F
100
AcDbEntity
  8
0
  6
Continuous
 62
     7
370
    25
100
AcDbCircle
 10
142.9934680851
 20
119.1714893617
 30
0.0
 40
21.0
  0
CIRCLE
  5
86
330
1F
100
AcDbEntity
  8
0
  6
Continuous
 62
     7
370
    25
100
AcDbCircle
 10
142.9934680851
 20
119.1714893617
 30
0.0
 40
32.0
  0
INSERT
  5
92
330
1F
100
AcDbEntity
  8
FORMAT
 62
     7
100
AcDbBlockReference
  2
SW_CENTERMARKSYMBOL_0
 10
142.9934680851
 20
119.1714893617
 30
0.0
  0
LINE
  5
93
330
1F
100
AcDbEntity
  8
0
  6
Continuous
 62
     7
370
    25
100
AcDbLine
 10
174.9934680851
 20
197.364782734
 30
0.0
 11
174.9934680851
 21
207.364782734
 31
0.0
  0
LINE
  5
94
330
1F
100
AcDbEntity
  8
0
  6
Continuous
 62
     7
370
    25
100
AcDbLine
 10
110.9934680851
 20
207.364782734
 30
0.0
 11
110.9934680851
 21
197.364782734
 31
0.0
  0
LINE
  5
95
330
1F
100
AcDbEntity
  8
0
  6
Continuous
 62
     7
370
    25
100
AcDbLine
 10
163.9934680851
 20
207.364782734
 30
0.0
 11
158.9934680851
 21
222.364782734
 31
0.0
  0
LINE
  5
96
330
1F
100
AcDbEntity
  8
0
  6
Continuous
 62
     7
370
    25
100
AcDbLine
 10
126.9934680851
 20
222.364782734
 30
0.0
 11
121.9934680851
 21
207.364782734
 31
0.0
  0
LINE
  5
97
330
1F
100
AcDbEntity
  8
0
  6
Continuous
 62
     7
370
    25
100
AcDbLine
 10
158.9934680851
 20
222.364782734
 30
0.0
 11
158.9934680851
 21
283.364782734
 31
0.0
  0
LINE
  5
98
330
1F
100
AcDbEntity
  8
0
  6
Continuous
 62
     7
370
    25
100
AcDbLine
 10
126.9934680851
 20
283.364782734
 30
0.0
 11
126.9934680851
 21
222.364782734
 31
0.0
  0
LINE
  5
99
330
1F
100
AcDbEntity
  8
0
  6
Continuous
 62
     7
370
    25
100
AcDbLine
 10
174.9934680851
 20
197.364782734
 30
0.0
 11
110.9934680851
 21
197.364782734
 31
0.0
  0
LINE
  5
9A
330
1F
100
AcDbEntity
  8
0
  6
Continuous
 62
     7
370
    25
100
AcDbLine
 10
174.9934680851
 20
207.364782734
 30
0.0
 11
110.9934680851
 21
207.364782734
 31
0.0
  0
LINE
  5
9B
330
1F
100
AcDbEntity
  8
0
  6
Continuous
 62
     7
370
    25
100
AcDbLine
 10
158.9934680851
 20
222.364782734
 30
0.0
 11
126.9934680851
 21
222.364782734
 31
0.0
  0
LINE
  5
9C
330
1F
100
AcDbEntity
  8
0
  6
Continuous
 62
     7
370
    25
100
AcDbLine
 10
158.9934680851
 20
283.364782734
 30
0.0
 11
126.9934680851
 21
283.364782734
 31
0.0
  0
LINE
  5
9D
330
1F
100
AcDbEntity
  8
0
  6
Continuous
 62
     7
370
    25
100
AcDbLine
 10
58.4616671283
 20
151.1714893617
 30
0.0
 11
48.4616671283
 21
151.1714893617
 31
0.0
  0
LINE
  5
9E
330
1F
100
AcDbEntity
  8
0
  6
Continuous
 62
     7
370
    25
100
AcDbLine
 10
48.4616671283
 20
87.1714893617
 30
0.0
 11
58.4616671283
 21
87.1714893617
 31
0.0
  0
LINE
  5
9F
330
1F
100
AcDbEntity
  8
0
  6
Continuous
 62
     7
370
    25
100
AcDbLine
 10
48.4616671283
 20
140.1714893617
 30
0.0
 11
33.4616671283
 21
135.1714893617
 31
0.0
  0
LINE
  5
A0
330
1F
100
AcDbEntity
  8
0
  6
Continuous
 62
     7
370
    25
100
AcDbLine
 10
33.4616671283
 20
103.1714893617
 30
0.0
 11
48.4616671283
 21
98.1714893617
 31
0.0
  0
LINE
  5
A1
330
1F
100
AcDbEntity
  8
0
  6
Continuous
 62
     7
370
    25
100
AcDbLine
 10
33.4616671283
 20
135.1714893617
 30
0.0
 11
-27.5383328717
 21
135.1714893617
 31
0.0
  0
LINE
  5
A2
330
1F
100
AcDbEntity
  8
0
  6
Continuous
 62
     7
370
    25
100
AcDbLine
 10
-27.5383328717
 20
103.1714893617
 30
0.0
 11
33.4616671283
 21
103.1714893617
 31
0.0
  0
LINE
  5
A3
330
1F
100
AcDbEntity
  8
0
  6
Continuous
 62
     7
370
    25
100
AcDbLine
 10
58.4616671283
 20
151.1714893617
 30
0.0
 11
58.4616671283
 21
87.1714893617
 31
0.0
  0
LINE
  5
A4
330
1F
100
AcDbEntity
  8
0
  6
Continuous
 62
     7
370
    25
100
AcDbLine
 10
48.4616671283
 20
151.1714893617
 30
0.0
 11
48.4616671283
 21
87.1714893617
 31
0.0
  0
LINE
  5
A5
330
1F
100
AcDbEntity
  8
0
  6
Continuous
 62
     7
370
    25
100
AcDbLine
 10
33.4616671283
 20
135.1714893617
 30
0.0
 11
33.4616671283
 21
103.1714893617
 31
0.0
  0
LINE
  5
A6
330
1F
100
AcDbEntity
  8
0
  6
Continuous
 62
     7
370
    25
100
AcDbLine
 10
-27.5383328717
 20
135.1714893617
 30
0.0
 11
-27.5383328717
 21
103.1714893617
 31
0.0
  0
LINE
  5
A7
330
1F
100
AcDbEntity
  8
0
  6
Continuous
 62
     7
370
    25
100
AcDbLine
 10
219.691790611
 20
87.1714893617
 30
0.0
 11
229.691790611
 21
87.1714893617
 31
0.0
  0
LINE
  5
A8
330
1F
100
AcDbEntity
  8
0
  6
Continuous
 62
     7
370
    25
100
AcDbLine
 10
229.691790611
 20
151.1714893617
 30
0.0
 11
219.691790611
 21
151.1714893617
 31
0.0
  0
LINE
  5
A9
330
1F
100
AcDbEntity
  8
0
  6
Continuous
 62
     7
370
    25
100
AcDbLine
 10
229.691790611
 20
98.1714893617
 30
0.0
 11
244.691790611
 21
103.1714893617
 31
0.0
  0
LINE
  5
AA
330
1F
100
AcDbEntity
  8
0
  6
Continuous
 62
     7
370
    25
100
AcDbLine
 10
244.691790611
 20
135.1714893617
 30
0.0
 11
229.691790611
 21
140.1714893617
 31
0.0
  0
LINE
  5
AB
330
1F
100
AcDbEntity
  8
0
  6
Continuous
 62
     7
370
    25
100
AcDbLine
 10
244.691790611
 20
103.1714893617
 30
0.0
 11
305.691790611
 21
103.1714893617
 31
0.0
  0
LINE
  5
AC
330
1F
100
AcDbEntity
  8
0
  6
Continuous
 62
     7
370
    25
100
AcDbLine
 10
305.691790611
 20
135.1714893617
 30
0.0
 11
244.691790611
 21
135.1714893617
 31
0.0
  0
LINE
  5
AD
330
1F
100
AcDbEntity
  8
0
  6
Continuous
 62
     7
370
    25
100
AcDbLine
 10
219.691790611
 20
119.1714893617
 30
0.0
 11
219.691790611
 21
151.1714893617
 31
0.0
  0
LINE
  5
AE
330
1F
100
AcDbEntity
  8
0
  6
Continuous
 62
     7
370
    25
100
AcDbLine
 10
219.691790611
 20
87.1714893617
 30
0.0
 11
219.691790611
 21
119.1714893617
 31
0.0
  0
LINE
  5
AF
330
1F
100
AcDbEntity
  8
0
  6
Continuous
 62
     7
370
    25
100
AcDbLine
 10
229.691790611
 20
119.1714893617
 30
0.0
 11
229.691790611
 21
151.1714893617
 31
0.0
  0
LINE
  5
B0
330
1F
100
AcDbEntity
  8
0
  6
Continuous
 62
     7
370
    25
100
AcDbLine
 10
229.691790611
 20
87.1714893617
 30
0.0
 11
229.691790611
 21
119.1714893617
 31
0.0
  0
LINE
  5
B1
330
1F
100
AcDbEntity
  8
0
  6
Continuous
 62
     7
370
    25
100
AcDbLine
 10
244.691790611
 20
119.1714893617
 30
0.0
 11
244.691790611
 21
135.1714893617
 31
0.0
  0
LINE
  5
B2
330
1F
100
AcDbEntity
  8
0
  6
Continuous
 62
     7
370
    25
100
AcDbLine
 10
244.691790611
 20
103.1714893617
 30
0.0
 11
244.691790611
 21
119.1714893617
 31
0.0
  0
LINE
  5
B3
330
1F
100
AcDbEntity
  8
0
  6
Continuous
 62
     7
370
    25
100
AcDbLine
 10
305.691790611
 20
119.1714893617
 30
0.0
 11
305.691790611
 21
135.1714893617
 31
0.0
  0
LINE
  5
B4
330
1F
100
AcDbEntity
  8
0
  6
Continuous
 62
     7
370
    25
100
AcDbLine
 10
305.691790611
 20
103.1714893617
 30
0.0
 11
305.691790611
 21
119.1714893617
 31
0.0
  0
LINE
  5
B5
330
1F
100
AcDbEntity
  8
0
  6
Continuous
 62
     7
370
    25
100
AcDbLine
 10
110.9934680851
 20
44.624914221
 30
0.0
 11
110.9934680851
 21
34.624914221
 31
0.0
  0
LINE
  5
B6
330
1F
100
AcDbEntity
  8
0
  6
Continuous
 62
     7
370
    25
100
AcDbLine
 10
174.9934680851
 20
34.624914221
 30
0.0
 11
174.9934680851
 21
44.624914221
 31
0.0
  0
LINE
  5
B7
330
1F
100
AcDbEntity
  8
0
  6
Continuous
 62
     7
370
    25
100
AcDbLine
 10
121.9934680851
 20
34.624914221
 30
0.0
 11
126.9934680851
 21
19.624914221
 31
0.0
  0
LINE
  5
B8
330
1F
100
AcDbEntity
  8
0
  6
Continuous
 62
     7
370
    25
100
AcDbLine
 10
158.9934680851
 20
19.624914221
 30
0.0
 11
163.9934680851
 21
34.624914221
 31
0.0
  0
LINE
  5
B9
330
1F
100
AcDbEntity
  8
0
  6
Continuous
 62
     7
370
    25
100
AcDbLine
 10
126.9934680851
 20
19.624914221
 30
0.0
 11
126.9934680851
 21
-41.375085779
 31
0.0
  0
LINE
  5
BA
330
1F
100
AcDbEntity
  8
0
  6
Continuous
 62
     7
370
    25
100
AcDbLine
 10
158.9934680851
 20
-41.375085779
 30
0.0
 11
158.9934680851
 21
19.624914221
 31
0.0
  0
LINE
  5
BB
330
1F
100
AcDbEntity
  8
0
  6
Continuous
 62
     7
370
    25
100
AcDbLine
 10
110.9934680851
 20
44.624914221
 30
0.0
 11
174.9934680851
 21
44.624914221
 31
0.0
  0
LINE
  5
BC
330
1F
100
AcDbEntity
  8
0
  6
Continuous
 62
     7
370
    25
100
AcDbLine
 10
110.9934680851
 20
34.624914221
 30
0.0
 11
174.9934680851
 21
34.624914221
 31
0.0
  0
LINE
  5
BD
330
1F
100
AcDbEntity
  8
0
  6
Continuous
 62
     7
370
    25
100
AcDbLine
 10
126.9934680851
 20
19.624914221
 30
0.0
 11
158.9934680851
 21
19.624914221
 31
0.0
  0
LINE
  5
BE
330
1F
100
AcDbEntity
  8
0
  6
Continuous
 62
     7
370
    25
100
AcDbLine
 10
126.9934680851
 20
-41.375085779
 30
0.0
 11
158.9934680851
 21
-41.375085779
 31
0.0
  0
LINE
  5
BF
330
1F
100
AcDbEntity
  8
0
  6
Continuous
 62
     7
370
    25
100
AcDbLine
 10
271.8082806975
 20
18.6623938981
 30
0.0
 11
228.6747670451
 21
43.5628413087
 31
0.0
  0
LINE
  5
C0
330
1F
100
AcDbEntity
  8
0
  6
Continuous
 62
     7
370
    25
100
AcDbLine
 10
212.6760673229
 20
15.8492777125
 30
0.0
 11
255.8095809753
 21
-9.0511696981
 31
0.0
  0
LINE
  5
C1
330
1F
100
AcDbEntity
  8
0
  6
Continuous
 62
     7
370
    25
100
AcDbLine
 10
297.4853000882
 20
22.3140742984
 30
0.0
 11
290.4142322764
 21
26.3961148575
 31
0.0
  0
LINE
  5
C2
330
1F
100
AcDbEntity
  8
0
  6
Continuous
 62
     7
370
    25
100
AcDbLine
 10
258.416832832
 20
-29.0310123348
 30
0.0
 11
265.4879006439
 21
-33.113052894
 31
0.0
  0
LINE
  5
C3
330
1F
100
AcDbEntity
  8
0
  6
Continuous
 62
     7
370
    25
100
AcDbLine
 10
282.1435443593
 20
17.7860255671
 30
0.0
 11
270.8518425297
 21
19.2145338998
 31
0.0
  0
LINE
  5
C4
330
1F
100
AcDbEntity
  8
0
  6
Continuous
 62
     7
370
    25
100
AcDbLine
 10
254.8531428075
 20
-8.4990296964
 30
0.0
 11
261.7369688076
 21
-17.5630302406
 31
0.0
  0
LWPOLYLINE
  5
C5
330
1F
100
AcDbEntity
  8
0
  6
Continuous
 62
     7
370
    25
100
AcDbPolyline
 90
       45
 70
   128
 43
0.0
 10
271.8082806975
 20
18.6623938981
 10
272.2350662101
 20
18.3882052141
 10
272.7636913845
 20
17.9598578205
 10
273.2445390368
 20
17.4613268345
 10
273.6750436369
 20
16.8952721346
 10
274.0529082563
 20
16.2647138676
 10
274.376116824
 20
15.5730163346
 10
274.6429448822
 20
14.8238700412
 10
274.851968788
 20
14.0212720071
 10
275.0020733082
 20
13.16950444
 10
275.0924575704
 20
12.2731118885
 10
275.1226393354
 20
11.3368769946
 10
275.0924575704
 20
10.3657949766
 10
275.0020733082
 20
9.3650469772
 10
274.851968788
 20
8.33997242
 10
274.6429448822
 20
7.2960405212
 10
274.376116824
 20
6.2388211093
 10
274.0529082563
 20
5.1739549072
 10
273.6750436369
 20
4.1071234369
 10
273.2445390368
 20
3.0440187058
 10
272.7636913845
 20
1.9903128377
 10
272.2350662101
 20
0.9516278092
 10
271.6614839578
 20
-0.0664945456
 10
271.046004937
 20
-1.0586221034
 10
270.3919129946
 20
-2.0194614344
 10
269.702697994
 20
-2.9438860451
 10
268.9820371957
 20
-3.8269637302
 10
268.2337756366
 20
-4.6639828881
 10
267.461905616
 20
-5.4504776596
 10
266.6705453944
 20
-6.1822517546
 10
265.8639172211
 20
-6.8554008418
 10
265.0463248062
 20
-7.4663333796
 10
264.2221303591
 20
-8.0117897785
 10
263.3957313137
 20
-8.4888597927
 10
262.5715368666
 20
-8.8949980471
 10
261.7539444517
 20
-9.2280376186
 10
260.9473162784
 20
-9.4862015968
 10
260.1559560568
 20
-9.6681125652
 10
259.3840860362
 20
-9.7727999502
 10
258.6358244771
 20
-9.7997051992
 10
257.9151636788
 20
-9.7486847611
 10
257.2259486782
 20
-9.6200108519
 10
256.5718567358
 20
-9.4143700028
 10
255.956377715
 20
-9.1328593965
 10
255.8095809753
 20
-9.0511696981
  0
LWPOLYLINE
  5
C6
330
1F
100
AcDbEntity
  8
0
  6
Continuous
 62
     7
370
    25
100
AcDbPolyline
 90
       87
 70
   128
 43
0.0
 10
209.361708685
 20
23.174794616
 10
209.39189045
 20
24.145876634
 10
209.4822747122
 20
25.1466246334
 10
209.6323792325
 20
26.1716991906
 10
209.8414031382
 20
27.2156310894
 10
210.1082311965
 20
28.2728505013
 10
210.4314397641
 20
29.3377167034
 10
210.8093043836
 20
30.4045481737
 10
211.2398089836
 20
31.4676529048
 10
211.720656636
 20
32.5213587729
 10
212.2492818103
 20
33.5600438014
 10
212.8228640626
 20
34.5781661562
 10
213.4383430834
 20
35.570293714
 10
214.0924350259
 20
36.531133045
 10
214.7816500264
 20
37.4555576557
 10
215.5023108248
 20
38.3386353408
 10
216.2505723838
 20
39.1756544987
 10
217.0224424044
 20
39.9621492702
 10
217.813802626
 20
40.6939233652
 10
218.6204307994
 20
41.3670724525
 10
219.4380232143
 20
41.9780049903
 10
220.2622176614
 20
42.5234613892
 10
221.0886167067
 20
43.0005314033
 10
221.9128111538
 20
43.4066696578
 10
222.7304035687
 20
43.7397092292
 10
223.5370317421
 20
43.9978732074
 10
224.3283919636
 20
44.1797841758
 10
225.1002619842
 20
44.2844715608
 10
225.8485235433
 20
44.3113768098
 10
226.5691843417
 20
44.2603563717
 10
227.2583993422
 20
44.1316824626
 10
227.9124912846
 20
43.9260416134
 10
228.5279703054
 20
43.6445310072
 10
229.1015525577
 20
43.2886526247
 10
229.6301777321
 20
42.8603052311
 10
230.1110253844
 20
42.3617742451
 10
230.5415299845
 20
41.7957195452
 10
230.9193946039
 20
41.1651612782
 10
231.2426031716
 20
40.4734637452
 10
231.5094312298
 20
39.7243174518
 10
231.7184551356
 20
38.9217194177
 10
231.8685596558
 20
38.0699518506
 10
231.958943918
 20
37.1735592991
 10
231.989125683
 20
36.2373244052
 10
231.958943918
 20
35.2662423872
 10
231.8685596558
 20
34.2654943878
 10
231.7184551356
 20
33.2404198306
 10
231.5094312298
 20
32.1964879318
 10
231.2426031716
 20
31.1392685199
 10
230.9193946039
 20
30.0744023178
 10
230.5415299845
 20
29.0075708475
 10
230.1110253844
 20
27.9444661164
 10
229.6301777321
 20
26.8907602483
 10
229.1015525577
 20
25.8520752198
 10
228.5279703054
 20
24.833952865
 10
227.9124912846
 20
23.8418253072
 10
227.2583993422
 20
22.8809859762
 10
226.5691843417
 20
21.9565613655
 10
225.8485235433
 20
21.0734836804
 10
225.1002619842
 20
20.2364645225
 10
224.3283919636
 20
19.449969751
 10
223.5370317421
 20
18.718195656
 10
222.7304035687
 20
18.0450465687
 10
221.9128111538
 20
17.434114031
 10
221.0886167067
 20
16.888657632
 10
220.2622176614
 20
16.4115876179
 10
219.4380232143
 20
16.0054493634
 10
218.6204307994
 20
15.672409792
 10
217.813802626
 20
15.4142458138
 10
217.0224424044
 20
15.2323348454
 10
216.2505723838
 20
15.1276474604
 10
215.5023108248
 20
15.1007422114
 10
214.7816500264
 20
15.1517626495
 10
214.0924350259
 20
15.2804365586
 10
213.4383430834
 20
15.4860774078
 10
212.8228640626
 20
15.7675880141
 10
212.2492818103
 20
16.1234663966
 10
211.720656636
 20
16.5518137901
 10
211.2398089836
 20
17.0503447761
 10
210.8093043836
 20
17.616399476
 10
210.4314397641
 20
18.246957743
 10
210.1082311965
 20
18.938655276
 10
209.8414031382
 20
19.6878015694
 10
209.6323792325
 20
20.4903996035
 10
209.4822747122
 20
21.3421671706
 10
209.39189045
 20
22.2385597221
 10
209.361708685
 20
23.174794616
  0
LWPOLYLINE
  5
C7
330
1F
100
AcDbEntity
  8
0
  6
Continuous
 62
     7
370
    25
100
AcDbPolyline
 90
       78
 70
   128
 43
0.0
 10
211.4830290286
 20
24.3994067838
 10
211.5136159419
 20
25.2822877683
 10
211.6051731308
 20
26.1946082239
 10
211.7570912974
 20
27.1302968084
 10
211.9683594514
 20
28.0831266688
 10
212.2375716381
 20
29.0467568794
 10
212.5629362947
 20
30.0147746403
 10
212.9422881731
 20
30.9807379529
 10
213.3731027493
 20
31.9382184909
 10
213.8525130232
 20
32.880844379
 10
214.3773285986
 20
33.8023425977
 10
214.9440569144
 20
34.6965807283
 10
215.5489264872
 20
35.5576077635
 10
216.1879120098
 20
36.3796937106
 10
216.8567611389
 20
37.1573677231
 10
217.551022794
 20
37.8854545089
 10
218.2660767783
 20
38.5591087705
 10
218.9971645254
 20
39.1738474498
 10
219.7394207671
 20
39.7255795625
 10
220.4879059105
 20
40.2106334224
 10
221.2376389105
 20
40.625781076
 10
221.9836304177
 20
40.9682597843
 10
222.7209159817
 20
41.2357904078
 10
223.4445890886
 20
41.4265925745
 10
224.1498338134
 20
41.5393965274
 10
224.8319568687
 20
41.5734515749
 10
225.4864188383
 20
41.5285310861
 10
226.1088643856
 20
41.4049339995
 10
226.6951512382
 20
41.2034828334
 10
227.2413777539
 20
40.9255182121
 10
227.7439088853
 20
40.5728899441
 10
228.1994003706
 20
40.1479447126
 10
228.6048209892
 20
39.6535104577
 10
228.9574727337
 20
39.0928775581
 10
229.255008765
 20
38.4697769331
 10
229.4954490299
 20
37.7883552145
 10
229.677193438
 20
37.0531471515
 10
229.7990325104
 20
36.2690454324
 10
229.860155428
 20
35.4412681249
 10
229.860155428
 20
34.5753239503
 10
229.7990325104
 20
33.6769756241
 10
229.677193438
 20
32.7522015065
 10
229.4954490299
 20
31.8071558164
 10
229.255008765
 20
30.848127677
 10
228.9574727337
 20
29.8814992624
 10
228.6048209892
 20
28.9137033252
 10
228.1994003706
 20
27.9511803878
 10
227.7439088853
 20
27.0003358813
 10
227.2413777539
 20
26.0674975192
 10
226.6951512382
 20
25.1588731868
 10
226.1088643856
 20
24.2805096291
 10
225.4864188383
 20
23.4382522108
 10
224.8319568687
 20
22.6377060159
 10
224.1498338134
 20
21.8841985474
 10
223.4445890886
 20
21.182744273
 10
222.7209159817
 20
20.5380112553
 10
221.9836304177
 20
19.9542900861
 10
221.2376389105
 20
19.4354653335
 10
220.4879059105
 20
18.9849896906
 10
219.7394207671
 20
18.6058609986
 10
218.9971645254
 20
18.3006022962
 10
218.2660767783
 20
18.0712450298
 10
217.551022794
 20
17.9193155342
 10
216.8567611389
 20
17.845824875
 10
216.1879120098
 20
17.8512621206
 10
215.5489264872
 20
17.9355910869
 10
214.9440569144
 20
18.0982505785
 10
214.3773285986
 20
18.3381581235
 10
213.8525130232
 20
18.6537171766
 10
213.3731027493
 20
19.0428277444
 10
212.9422881731
 20
19.5029003603
 10
212.5629362947
 20
20.030873317
 10
212.2375716381
 20
20.6232330415
 10
211.9683594514
 20
21.2760374776
 10
211.7570912974
 20
21.9849423194
 10
211.6051731308
 20
22.7452299223
 10
211.5136159419
 20
23.5518406976
 10
211.4830290286
 20
24.3994067838
  0
LWPOLYLINE
  5
C8
330
1F
100
AcDbEntity
  8
0
  6
Continuous
 62
     7
370
    25
100
AcDbPolyline
 90
       62
 70
   128
 43
0.0
 10
297.4853000882
 20
22.3140742984
 10
297.9973551252
 20
21.9989160978
 10
298.7781764136
 20
21.4359928388
 10
299.51238267
 20
20.8007258645
 10
300.1979946043
 20
20.0948277423
 10
300.8331639278
 20
19.3202014487
 10
301.4161783364
 20
18.4789352391
 10
301.9454661263
 20
17.5732970187
 10
302.4196004312
 20
16.6057282279
 10
302.8373030688
 20
15.5788372612
 10
303.1974479867
 20
14.4953924349
 10
303.4990642978
 20
13.3583145249
 10
303.7413388979
 20
12.170668892
 10
303.9236186575
 20
10.9356572191
 10
304.0454121826
 20
9.6566088792
 10
304.1063911394
 20
8.3369719605
 10
304.1063911394
 20
6.9803039708
 10
304.0454121826
 20
5.5902622471
 10
303.9236186575
 20
4.1705940963
 10
303.7413388979
 20
2.7251266926
 10
303.4990642978
 20
1.2577567606
 10
303.1974479867
 20
-0.2275599298
 10
302.8373030688
 20
-1.7268192273
 10
302.4196004312
 20
-3.2359793941
 10
301.9454661263
 20
-4.7509720011
 10
301.4161783364
 20
-6.267712896
 10
300.8331639278
 20
-7.7821132136
 10
300.1979946043
 20
-9.2900903984
 10
299.51238267
 20
-10.7875792105
 10
298.7781764136
 20
-12.2705426847
 10
297.9973551252
 20
-13.7349830139
 10
297.1720237611
 20
-15.1769523256
 10
296.3044072686
 20
-16.5925633257
 10
295.3968445885
 20
-17.9779997771
 10
294.4517823493
 20
-19.3295267881
 10
293.4717682717
 20
-20.6435008808
 10
292.4594443003
 20
-21.9163798134
 10
291.4175394816
 20
-23.1447321293
 10
290.3488626069
 20
-24.3252464078
 10
289.25629464
 20
-25.4547401912
 10
288.142780951
 20
-26.530168564
 10
287.0113233759
 20
-27.5486323613
 10
285.8649721244
 20
-28.5073859847
 10
284.7068175567
 20
-29.4038448042
 10
283.5399818527
 20
-30.2355921251
 10
282.3676105953
 20
-31.0003857038
 10
281.1928642901
 20
-31.6961637919
 10
280.0189098455
 20
-32.3210506948
 10
278.8489120349
 20
-32.8733618278
 10
277.6860249658
 20
-33.3516082578
 10
276.5333835761
 20
-33.754500717
 10
275.394095183
 20
-34.0809530784
 10
274.2712311068
 20
-34.3300852844
 10
273.1678183905
 20
-34.5012257184
 10
272.0868316397
 20
-34.5939130161
 10
271.0311850034
 20
-34.607897309
 10
270.0037243185
 20
-34.5431408979
 10
269.0072194373
 20
-34.3998183546
 10
268.0443567607
 20
-34.1783160513
 10
267.1177319964
 20
-33.8792311192
 10
266.2298431607
 20
-33.5033698382
 10
265.4879006439
 20
-33.113052894
  0
ARC
  5
C9
330
1F
100
AcDbEntity
  8
0
  6
Continuous
 62
     7
370
    25
100
AcDbCircle
 10
288.2744471603
 20
-14.6377364354
 30
0.0
 40
36.48724205889928
100
AcDbArc
 50
168.1971250167
 51
179.5952403568
  0
LWPOLYLINE
  5
CA
330
1F
100
AcDbEntity
  8
0
  6
Continuous
 62
     7
370
    25
100
AcDbPolyline
 90
       98
 70
   128
 43
0.0
 10
268.5573499726
 20
20.5391162584
 10
269.4623157642
 20
21.3187003042
 10
270.614957154
 20
22.2466192666
 10
271.7778442231
 20
23.1110136676
 10
272.9478420336
 20
23.909553253
 10
274.1217964783
 20
24.640085301
 10
275.2965427835
 20
25.3006404265
 10
276.4689140409
 20
25.8894378896
 10
277.6357497448
 20
26.4048903965
 10
278.7939043125
 20
26.8456083784
 10
279.9402555641
 20
27.2104037374
 10
281.0717131391
 20
27.4982930498
 10
282.1852268281
 20
27.7085002168
 10
283.277794795
 20
27.8404585572
 10
284.3464716698
 20
27.8938123346
 10
285.3883764884
 20
27.8684177167
 10
286.4007004598
 20
27.7643431627
 10
287.3807145374
 20
27.5818692394
 10
288.3257767767
 20
27.3214878641
 10
289.2333394568
 20
26.9839009791
 10
290.1009559492
 20
26.5700186588
 10
290.9262873134
 20
26.0809566569
 10
291.7071086017
 20
25.518033398
 10
292.4413148581
 20
24.8827664237
 10
293.1269267924
 20
24.1768683014
 10
293.7620961159
 20
23.4022420078
 10
294.3451105245
 20
22.5609757982
 10
294.8743983144
 20
21.6553375778
 10
295.3485326193
 20
20.687768787
 10
295.7662352569
 20
19.6608778203
 10
296.1263801748
 20
18.577432994
 10
296.4279964859
 20
17.440355084
 10
296.670271086
 20
16.2527094512
 10
296.8525508456
 20
15.0176977782
 10
296.9743443707
 20
13.7386494383
 10
297.0353233275
 20
12.4190125196
 10
297.0353233275
 20
11.0623445299
 10
296.9743443707
 20
9.6723028063
 10
296.8525508456
 20
8.2526346554
 10
296.670271086
 20
6.8071672517
 10
296.4279964859
 20
5.3397973197
 10
296.1263801748
 20
3.8544806293
 10
295.7662352569
 20
2.3552213318
 10
295.3485326193
 20
0.846061165
 10
294.8743983144
 20
-0.668931442
 10
294.3451105245
 20
-2.1856723369
 10
293.7620961159
 20
-3.7000726545
 10
293.1269267924
 20
-5.2080498393
 10
292.4413148581
 20
-6.7055386514
 10
291.7071086017
 20
-8.1885021256
 10
290.9262873134
 20
-9.6529424547
 10
290.1009559492
 20
-11.0949117665
 10
289.2333394568
 20
-12.5105227666
 10
288.3257767767
 20
-13.895959218
 10
287.3807145374
 20
-15.2474862289
 10
286.4007004598
 20
-16.5614603217
 10
285.3883764884
 20
-17.8343392543
 10
284.3464716698
 20
-19.0626915702
 10
283.277794795
 20
-20.2432058487
 10
282.1852268281
 20
-21.3726996321
 10
281.0717131391
 20
-22.4481280049
 10
279.9402555641
 20
-23.4665918021
 10
278.7939043125
 20
-24.4253454256
 10
277.6357497448
 20
-25.3218042451
 10
276.4689140409
 20
-26.153551566
 10
275.2965427835
 20
-26.9183451447
 10
274.1217964783
 20
-27.6141232328
 10
272.9478420336
 20
-28.2390101357
 10
271.7778442231
 20
-28.7913212687
 10
270.614957154
 20
-29.2695676987
 10
269.4623157642
 20
-29.6724601578
 10
268.3230273712
 20
-29.9989125193
 10
267.200163295
 20
-30.2480447252
 10
266.0967505786
 20
-30.4191851593
 10
265.0157638278
 20
-30.511872457
 10
263.9601171916
 20
-30.5258567499
 10
262.9326565066
 20
-30.4611003388
 10
261.9361516254
 20
-30.3177777955
 10
260.9732889489
 20
-30.0962754922
 10
260.0466641845
 20
-29.7971905601
 10
259.1587753489
 20
-29.4213292791
 10
258.3120160333
 20
-28.9697049049
 10
257.5086689512
 20
-28.4435349369
 10
256.7508997843
 20
-27.8442378364
 10
256.0407513443
 20
-27.1734292024
 10
255.3801380658
 20
-26.4329174163
 10
254.7708408454
 20
-25.624698767
 10
254.2145022408
 20
-24.750952069
 10
253.7126220424
 20
-23.8140327891
 10
253.2665532305
 20
-22.816466696
 10
252.8774983277
 20
-21.7609430514
 10
252.5465061574
 20
-20.6503073604
 10
252.2744690158
 20
-19.4875537007
 10
252.062120267
 20
-18.2758166504
 10
251.9100323658
 20
-17.0183628384
 10
251.8186153141
 20
-15.7185821379
 10
251.7881155562
 20
-14.3799785278
 10
251.7881155562
 20
-14.3799785278
  0
LWPOLYLINE
  5
CB
330
1F
100
AcDbEntity
  8
0
  6
Continuous
 62
     7
370
    25
100
AcDbPolyline
 90
       58
 70
   128
 43
0.0
 10
282.1435443593
 20
17.7860255671
 10
282.9110315242
 20
17.6506849165
 10
283.673883759
 20
17.4336272285
 10
284.3986914427
 20
17.1395173473
 10
285.0824761852
 20
16.7695638334
 10
285.7224281683
 20
16.3252869052
 10
286.3159176919
 20
15.8085121919
 10
286.8605059804
 20
15.2213632316
 10
287.3539552037
 20
14.5662527454
 10
287.794237673
 20
13.8458727227
 10
288.1795441732
 20
13.0631833596
 10
288.5082913973
 20
12.2214008946
 10
288.7791284525
 20
11.3239843924
 10
288.9909424111
 20
10.3746215298
 10
289.1428628842
 20
9.3772134426
 10
289.234265598
 20
8.3358586945
 10
289.2647749591
 20
7.2548364355
 10
289.234265598
 20
6.138588818
 10
289.1428628842
 20
4.9917027428
 10
288.9909424111
 20
3.8188910109
 10
288.7791284525
 20
2.6249729572
 10
288.5082913973
 20
1.4148546472
 10
288.1795441732
 20
0.1935087164
 10
287.794237673
 20
-1.0340460626
 10
287.3539552037
 20
-2.2627654041
 10
286.8605059804
 20
-3.4876002365
 10
286.3159176919
 20
-4.703517451
 10
285.7224281683
 20
-5.9055205829
 10
285.0824761852
 20
-7.0886703433
 10
284.3986914427
 20
-8.2481049163
 10
283.673883759
 20
-9.3790599365
 10
282.9110315242
 20
-10.476888067
 10
282.1132694619
 20
-11.5370780966
 10
281.2838757475
 20
-12.5552734771
 10
280.4262585377
 20
-13.5272902252
 10
279.5439419655
 20
-14.4491341156
 10
278.640551659
 20
-15.3170170941
 10
277.7197998427
 20
-16.1273728434
 10
276.7854700833
 20
-16.8768714377
 10
275.8414017424
 20
-17.5624330267
 10
274.891474199
 20
-18.1812404908
 10
273.9395909094
 20
-18.7307510172
 10
272.989663366
 20
-19.2087065495
 10
272.045595025
 20
-19.6131430657
 10
271.1112652657
 20
-19.9423986495
 10
270.1905134494
 20
-20.1951203192
 10
269.2871231429
 20
-20.370269587
 10
268.4048065707
 20
-20.4671267272
 10
267.5471893609
 20
-20.4852937329
 10
266.7177956464
 20
-20.424695952
 10
265.9200335842
 20
-20.2855823938
 10
265.1571813494
 20
-20.0685247059
 10
264.4323736657
 20
-19.7744148246
 10
263.7485889232
 20
-19.4044613107
 10
263.1086369401
 20
-18.9601843825
 10
262.5151474165
 20
-18.4434096692
 10
261.970559128
 20
-17.8562607089
 10
261.7369688076
 20
-17.5630302406
  0
ENDSEC
  0
SECTION
  2
OBJECTS
  0
DICTIONARY
  5
C
330
0
100
AcDbDictionary
281
     1
  3
ACAD_GROUP
350
D
  3
ACAD_LAYOUT
350
1A
  3
ACAD_MLINESTYLE
350
17
  3
ACAD_PLOTSETTINGS
350
19
  3
ACAD_PLOTSTYLENAME
350
E
  3
ACAD_SCALELIST
350
47
  0
DICTIONARY
  5
D
102
{ACAD_REACTORS
330
C
102
}
330
C
100
AcDbDictionary
281
     1
  0
DICTIONARY
  5
1A
102
{ACAD_REACTORS
330
C
102
}
330
C
100
AcDbDictionary
281
     1
  3
Layout1
350
1E
  3
Layout2
350
26
  3
Model
350
22
  0
DICTIONARY
  5
17
102
{ACAD_REACTORS
330
C
102
}
330
C
100
AcDbDictionary
281
     1
  3
Standard
350
18
  0
DICTIONARY
  5
19
102
{ACAD_REACTORS
330
C
102
}
330
C
100
AcDbDictionary
281
     1
  0
ACDBDICTIONARYWDFLT
  5
E
102
{ACAD_REACTORS
330
C
102
}
330
C
100
AcDbDictionary
281
     1
  3
Normal
350
F
100
AcDbDictionaryWithDefault
340
F
  0
DICTIONARY
  5
47
102
{ACAD_REACTORS
330
C
102
}
330
C
100
AcDbDictionary
281
     1
  3
A0
350
48
  3
A1
350
49
  3
A2
350
4A
  3
A3
350
4B
  3
A4
350
4C
  3
A5
350
4D
  3
A6
350
4E
  3
A7
350
4F
  3
A8
350
50
  3
A9
350
51
  3
B0
350
52
  3
B1
350
53
  3
B2
350
54
  3
B3
350
55
  3
B4
350
56
  3
B5
350
57
  3
B6
350
58
  3
B7
350
59
  3
B8
350
5A
  3
B9
350
5B
  3
C0
350
5C
  3
C1
350
5D
  3
C2
350
5E
  3
C3
350
5F
  3
C4
350
60
  3
C5
350
61
  3
C6
350
62
  3
C7
350
63
  3
C8
350
64
  3
C9
350
65
  3
D0
350
66
  3
D1
350
67
  3
D2
350
68
  0
LAYOUT
  5
1E
102
{ACAD_REACTORS
330
1A
102
}
330
1A
100
AcDbPlotSettings
  1

  2
none_device
  4

  6

 40
0.0
 41
0.0
 42
0.0
 43
0.0
 44
0.0
 45
0.0
 46
0.0
 47
0.0
 48
0.0
 49
0.0
140
0.0
141
0.0
142
1.0
143
1.0
 70
   688
 72
     1
 73
     0
 74
     5
  7

 75
    16
147
1.0
148
0.0
149
0.0
100
AcDbLayout
  1
Layout1
 70
     1
 71
     1
 10
0.0
 20
0.0
 11
420.0
 21
297.0
 12
0.0
 22
0.0
 32
0.0
 14
1.0000000000E+20
 24
1.0000000000E+20
 34
1.0000000000E+20
 15
-1.0000000000E+20
 25
-1.0000000000E+20
 35
-1.0000000000E+20
146
0.0
 13
0.0
 23
0.0
 33
0.0
 16
1.0
 26
0.0
 36
0.0
 17
0.0
 27
1.0
 37
0.0
 76
     0
330
1B
  0
LAYOUT
  5
26
102
{ACAD_REACTORS
330
1A
102
}
330
1A
100
AcDbPlotSettings
  1

  2
none_device
  4

  6

 40
0.0
 41
0.0
 42
0.0
 43
0.0
 44
0.0
 45
0.0
 46
0.0
 47
0.0
 48
0.0
 49
0.0
140
0.0
141
0.0
142
1.0
143
1.0
 70
   688
 72
     1
 73
     0
 74
     5
  7

 75
    16
147
1.0
148
0.0
149
0.0
100
AcDbLayout
  1
Layout2
 70
     1
 71
     2
 10
0.0
 20
0.0
 11
0.0
 21
0.0
 12
0.0
 22
0.0
 32
0.0
 14
0.0
 24
0.0
 34
0.0
 15
0.0
 25
0.0
 35
0.0
146
0.0
 13
0.0
 23
0.0
 33
0.0
 16
1.0
 26
0.0
 36
0.0
 17
0.0
 27
1.0
 37
0.0
 76
     0
330
23
  0
LAYOUT
  5
22
102
{ACAD_REACTORS
330
1A
102
}
330
1A
100
AcDbPlotSettings
  1

  2
none_device
  4
Letter_(8.50_x_11.00_Inches)
  6

 40
6.35
 41
6.35
 42
6.35000508
 43
6.35000508
 44
215.9
 45
279.4
 46
0.0
 47
0.0
 48
0.0
 49
0.0
140
0.0
141
0.0
142
1.0
143
1.0
 70
  1712
 72
     1
 73
     0
 74
     0
  7

 75
     0
147
1.0
148
0.0
149
0.0
100
AcDbLayout
  1
Model
 70
     1
 71
     0
 10
0.0
 20
0.0
 11
279.4
 21
215.9
 12
0.0
 22
0.0
 32
0.0
 14
0.0
 24
0.0
 34
0.0
 15
279.4
 25
215.9
 35
0.0
146
0.0
 13
0.0
 23
0.0
 33
0.0
 16
1.0
 26
0.0
 36
0.0
 17
0.0
 27
1.0
 37
0.0
 76
     0
330
1F
331
29
  0
MLINESTYLE
  5
18
102
{ACAD_REACTORS
330
17
102
}
330
17
100
AcDbMlineStyle
  2
Standard
 70
     0
  3

 62
   256
 51
90.0
 52
90.0
 71
     2
 49
0.5
 62
   256
  6
BYLAYER
 49
-0.5
 62
   256
  6
BYLAYER
  0
ACDBPLACEHOLDER
  5
F
102
{ACAD_REACTORS
330
E
102
}
330
E
  0
SCALE
  5
48
102
{ACAD_REACTORS
330
47
102
}
330
47
100
AcDbScale
 70
     0
300
1:1
140
1.0
141
1.0
290
     1
  0
SCALE
  5
49
102
{ACAD_REACTORS
330
47
102
}
330
47
100
AcDbScale
 70
     0
300
1:2
140
1.0
141
2.0
290
     0
  0
SCALE
  5
4A
102
{ACAD_REACTORS
330
47
102
}
330
47
100
AcDbScale
 70
     0
300
1:4
140
1.0
141
4.0
290
     0
  0
SCALE
  5
4B
102
{ACAD_REACTORS
330
47
102
}
330
47
100
AcDbScale
 70
     0
300
1:5
140
1.0
141
5.0
290
     0
  0
SCALE
  5
4C
102
{ACAD_REACTORS
330
47
102
}
330
47
100
AcDbScale
 70
     0
300
1:8
140
1.0
141
8.0
290
     0
  0
SCALE
  5
4D
102
{ACAD_REACTORS
330
47
102
}
330
47
100
AcDbScale
 70
     0
300
1:10
140
1.0
141
10.0
290
     0
  0
SCALE
  5
4E
102
{ACAD_REACTORS
330
47
102
}
330
47
100
AcDbScale
 70
     0
300
1:16
140
1.0
141
16.0
290
     0
  0
SCALE
  5
4F
102
{ACAD_REACTORS
330
47
102
}
330
47
100
AcDbScale
 70
     0
300
1:20
140
1.0
141
20.0
290
     0
  0
SCALE
  5
50
102
{ACAD_REACTORS
330
47
102
}
330
47
100
AcDbScale
 70
     0
300
1:30
140
1.0
141
30.0
290
     0
  0
SCALE
  5
51
102
{ACAD_REACTORS
330
47
102
}
330
47
100
AcDbScale
 70
     0
300
1:40
140
1.0
141
40.0
290
     0
  0
SCALE
  5
52
102
{ACAD_REACTORS
330
47
102
}
330
47
100
AcDbScale
 70
     0
300
1:50
140
1.0
141
50.0
290
     0
  0
SCALE
  5
53
102
{ACAD_REACTORS
330
47
102
}
330
47
100
AcDbScale
 70
     0
300
1:100
140
1.0
141
100.0
290
     0
  0
SCALE
  5
54
102
{ACAD_REACTORS
330
47
102
}
330
47
100
AcDbScale
 70
     0
300
2:1
140
2.0
141
1.0
290
     0
  0
SCALE
  5
55
102
{ACAD_REACTORS
330
47
102
}
330
47
100
AcDbScale
 70
     0
300
4:1
140
4.0
141
1.0
290
     0
  0
SCALE
  5
56
102
{ACAD_REACTORS
330
47
102
}
330
47
100
AcDbScale
 70
     0
300
8:1
140
8.0
141
1.0
290
     0
  0
SCALE
  5
57
102
{ACAD_REACTORS
330
47
102
}
330
47
100
AcDbScale
 70
     0
300
10:1
140
10.0
141
1.0
290
     0
  0
SCALE
  5
58
102
{ACAD_REACTORS
330
47
102
}
330
47
100
AcDbScale
 70
     0
300
100:1
140
100.0
141
1.0
290
     0
  0
SCALE
  5
59
102
{ACAD_REACTORS
330
47
102
}
330
47
100
AcDbScale
 70
     0
300
1/128" = 1'-0"
140
0.0078125
141
12.0
290
     0
  0
SCALE
  5
5A
102
{ACAD_REACTORS
330
47
102
}
330
47
100
AcDbScale
 70
     0
300
1/64" = 1'-0"
140
0.015625
141
12.0
290
     0
  0
SCALE
  5
5B
102
{ACAD_REACTORS
330
47
102
}
330
47
100
AcDbScale
 70
     0
300
1/32" = 1'-0"
140
0.03125
141
12.0
290
     0
  0
SCALE
  5
5C
102
{ACAD_REACTORS
330
47
102
}
330
47
100
AcDbScale
 70
     0
300
1/16" = 1'-0"
140
0.0625
141
12.0
290
     0
  0
SCALE
  5
5D
102
{ACAD_REACTORS
330
47
102
}
330
47
100
AcDbScale
 70
     0
300
3/32" = 1'-0"
140
0.09375
141
12.0
290
     0
  0
SCALE
  5
5E
102
{ACAD_REACTORS
330
47
102
}
330
47
100
AcDbScale
 70
     0
300
1/8" = 1'-0"
140
0.125
141
12.0
290
     0
  0
SCALE
  5
5F
102
{ACAD_REACTORS
330
47
102
}
330
47
100
AcDbScale
 70
     0
300
3/16" = 1'-0"
140
0.1875
141
12.0
290
     0
  0
SCALE
  5
60
102
{ACAD_REACTORS
330
47
102
}
330
47
100
AcDbScale
 70
     0
300
1/4" = 1'-0"
140
0.25
141
12.0
290
     0
  0
SCALE
  5
61
102
{ACAD_REACTORS
330
47
102
}
330
47
100
AcDbScale
 70
     0
300
3/8" = 1'-0"
140
0.375
141
12.0
290
     0
  0
SCALE
  5
62
102
{ACAD_REACTORS
330
47
102
}
330
47
100
AcDbScale
 70
     0
300
1/2" = 1'-0"
140
0.5
141
12.0
290
     0
  0
SCALE
  5
63
102
{ACAD_REACTORS
330
47
102
}
330
47
100
AcDbScale
 70
     0
300
3/4" = 1'-0"
140
0.75
141
12.0
290
     0
  0
SCALE
  5
64
102
{ACAD_REACTORS
330
47
102
}
330
47
100
AcDbScale
 70
     0
300
1" = 1'-0"
140
1.0
141
12.0
290
     0
  0
SCALE
  5
65
102
{ACAD_REACTORS
330
47
102
}
330
47
100
AcDbScale
 70
     0
300
1-1/2" = 1'-0"
140
1.5
141
12.0
290
     0
  0
SCALE
  5
66
102
{ACAD_REACTORS
330
47
102
}
330
47
100
AcDbScale
 70
     0
300
3" = 1'-0"
140
3.0
141
12.0
290
     0
  0
SCALE
  5
67
102
{ACAD_REACTORS
330
47
102
}
330
47
100
AcDbScale
 70
     0
300
6" = 1'-0"
140
6.0
141
12.0
290
     0
  0
SCALE
  5
68
102
{ACAD_REACTORS
330
47
102
}
330
47
100
AcDbScale
 70
     0
300
1'-0" = 1'-0"
140
12.0
141
12.0
290
     0
  0
ENDSEC
  0
EOF
